Yökuppi

Etusivu    Osakilpailut    Pistetilanne    Yöhärvelit    LIVE/Replay    Yögalleria    Ohjeet/kausikortit    Yökuppi ry
Tulossa:
27.3.2019
Heinola, kirkonkylä
17.4.2019
Hollola, Sairakkala
24.4.2019
Mäntsälä, Tornikallio
28.8.2019
Nastola, Immilä
4.9.2019
Lammi

Viimeisin tapahtuma:
20.3.2019
Orimattila, Jokela

Yökuppi 2014

A-rata

SijaNimiPisteet
1Hämäläinen Jani9871
(658)(0)678-72994199386110009921000890866921
2Lehtinen Niko9082
-995983--753100081009718997858861000
3Hytönen Harri8921
709884-894966778-789(630)1000651637740873
4Hirvonen Kimmo8843
(556)935999874809579701775660875(0)-819817
5Ahvenainen Timo7684
822---100010009631000914--999986-
6Hirvonen Juha6771
621886677-782--717-999807-581701
7Leppänen Kristian6627
-944846826--635858-876--815827
8Leirimaa Tatu6086
810(0)01000742994908-7810-08510
9Niskanen Teemu5102
951910709848930----754---0
10Lindroth Joona4412
674953096300---579525-718-
11Kukkonen Saara4285
----550--480577781647-550700
12Jokinen Heikki4071
-999-804--402--867---999
13Karetjoki Jouni3806
658-703-679----774992---
14Elovaara Juho3678
462-836-0---741853786---
15Nousiainen Antti3128
4009404000----506--400482-
16Lehtonen Pasi3007
-803920-884-----400---
17Kommio Jere2937
--938-------1000--999
18Mäkinen Tapani2824
100001000-824---------
19Järvinen Seppo2702
-960917-825---------
20Niskanen Tuomo2660
400793--0701-7660-----
21Rantala Joonas2538
---------761998-779-
22Gröhn Timo2326
400624--------726576--
23Suomela Lauri2318
691---737890-0------
24Rantala Valtteri1986
-1000986-----------
25Kauppi Minna1818
------------832986
26Linnainmaa Tero1779
840-939-----------
27Karjalainen Joonas1774
-701400-----6730----
28Kotola Mikko1564
0696401-0------467--
29Maasilta Tommi1547
-792---------755--
30Peltola Ilkka1468
------7057630-----
31Mäkinen Seppo1452
--681-771---------
32Sainio Mikko1395
---------646--749-
33Solonen Joni1329
-929400----------0
34Hiiri Ari1305
--554-------751---
35Andelin Sanna1294
--------631663----
36Koskinen Juho1285
-----729--556----0
37Gynther Kimmo1282
400882------------
38Makkonen Olli1126
---------400--726-
39Penttinen Topi1000
-----------1000--
39Lahtinen Tuomo1000
------------10000
41Laine Simo974
---------400574---
42Hasu Topi938
--938-----------
43Silvonen Tomi876
876-------------
44Kauppinen Jussi835
-835------------
45Kaunetsalo Jukka823
0-423---------400-
46Ryyppö Jarkko816
-----------816--
47Ilmonen Mikko800
---------400--400-
47Ristolainen Janne800
-400-------400----
47Seppänen Kim800
------400-400-0---
50Kärkkäinen Mikko784
----------784---
51Leinonen Kari762
-762------------
52Kiuru Jani760
----0760---0----
53Tammi Matti727
----------727---
54Kuusinen Petri708
--708-----------
55Juga Emma700
-------------700
56Pakari Jussi698
----------698---
57Kommio Jyrki697
----------697---
58Vesanto Anssi695
---------695----
59Nieminen Verneri664
-----------664--
60Huostila Anssi532
532-------------
61Malmberg Arto530
-------------530
62Niemi Tero502
--502-----------
63Koivuniemi Kimmo500
--5000----------
64Pohjola Jukka482
----------482---
65Kotiranta Heikki480
-----------480--
66Sarkkinen Timo479
-----------479--
67Nieminen Tomi400
-----------400--
67Salmi Antti400
------------400-
67Lohikainen Timo400
-----------400--
67Jaakkola Antti400
-----------400--
67Sundqvist Jari400
-----------400--
67Molnar Geza400
---------400----

B-rata

SijaNimiPisteet
1Lehtinen Jukka9676
-888906(564)9696791000973842961902-667889
2Tuokko Jyrki9674
902752741(652)(732)966892982988813950-797891
3Sundqvist Jari9517
7881000896-745730936989674835965--959
4Koivunen Mari9345
(419)911757791619(571)783929917881975(509)887895
5Väkeväinen Mika8905
794859628-10008278141000-954-457827745
6Lassila Marko8253
732740577(400)(561)770873868859961(0)663617593
7Kiljunen Juha7544
1000-9411000--797883881-985400657-
8Salo Tommi7438
739810846715(0)(400)545868428(400)710591593593
9Lohikainen Timo7202
7500763-836-761803792872--737888
10Saarinen Heikki6723
783-877999-734--0976955-696703
11Laine Markku6350
----480999689-816876656534613687
12Manerus Eero6321
411-473-816513747721400781-411545503
13Pökälä Mona6132
---400-400999814878657400433479672
14Tahvanainen Anu5725
-903884842417--776775--460-668
15Juhola Petri5364
845760767---755806-682---749
15Halme Antti5364
--400400961-766899692---555691
17Leinonen Kari4950
806-600637542----755--785825
18Iivonen Risto4864
(400)402400434417(400)400505502604400400400(0)
19Liikkanen Reima4547
----0-910993854-655400735-
20Sani Mikko4399
675915--591---758828--632-
21Kiljunen Eemeli4381
6620596975610-974-----564-
22Hyvärinen Emilia4237
----808-917895877740----
23Haapaniemi Marko4213
-----544792822400918737---
24Laurell Olli3905
575---504--655-847-591733-
25Elovaara Kari3561
677-632-637---827788----
26Vidqvist Jouni3471
-01000--1000--1000471----
27Rekola Pekka3439
545713-----831-550-4004000
28Palo Juha3382
6180--0----758683-579744
29Koivuniemi Kirsi3312
768912-857---775------
30Kinkki Seppo3258
--501465----486692--520594
31Suomela Juha3188
529---452400--400499--421487
32Arvela Kirsi3102
-569--493----832-400408400
33Uusi-Simola Arto3090
774--693-400-810413-----
34Kaartokallio Antti2718
----581----7825554000400
35Nikkari Paavo2699
------659570400670--400-
36Koponen Simo2664
----400400-691-650--5230
37Kohonen Jani2599
-0400925416858--------
38Hirvonen Joni2549
--902---823------824
39Rantala Ilkka2546
----757684---7050-400-
40Pelkonen Roosa2540
-----400734916-490----
41Järvinen Tuomas2497
----794-----979--724
42Kukkonen Saara2394
723921---------750--
43Hämäläinen Jorma2384
857------905---622--
44Maasilta Tommi2352
598-------903-851---
45Inkinen Paavo2349
838--765----746-----
46Rajala Esa2295
400400400--------400-695
47Idman Raimo2211
----400400---546465-400-
48Laiho Juha-Matti2026
569----624---833----
49Sundqvist Sari1998
452457-------689-400--
49Tuomala Tuukka1998
9990-----999------
51Lindroth Mia1966
732--400834---------
52Gröhn Timo1960
------------1000960
53Niemi Seppo1827
-------585-660--582-
54Niskanen Tuomo1790
--901----------889
55Nurminen Hannu1754
782---572400--------
56Nousiainen Antti1748
----751--997------
57Kirvesmies Lotta1725
------942-783-----
58Näsi Antero1559
----756-803-------
59Hämäläinen Markku1545
-------999---546--
60Liukkonen Jari1541
-717-----824------
61Nykänen Timo1337
-937400-----------
62Nenonen Jari1257
-------857-----400
63Lepola Antti1211
811-400-----------
64Jaakkola Antti1200
----400---400---400-
65Palttala Pekka1170
400770------------
66Mäkinen Riikka1134
-----400--734-----
67Mäenpää Jarmo1058
-------400-658-0--
68Vertanen Tapani1010
---------610--400-
69Kiuru Seppo1002
--400------602----
70Reitti Mikko1000
-------------1000
70Kauppi Minna1000
-----------1000--
70Jokinen Sakari1000
---------1000----
70Toivonen Juuso1000
----------1000---
74Kerkola Pekka993
----------993---
75Kivikko Antti968
----------968---
76Rantio Jukka-Pekka966
----------966---
77Nummela Liinu936
--------936-----
78Remahl Virpi909
-909------------
79Laine Simo897
-------------897
80Kommio Jyrki895
--895-----------
81Remahl Ville874
-874------------
82Lehto Esa872
--------872-----
83Sainio Mikko868
-------------868
84Kohonen Janne867
-867-0----------
85Huusari Hannu854
------400------454
86Vestola Heikki849
-----------849--
87Nieminen Markku830
-------------830
88Pyykkönen Tero823
-------------823
89Sani Tuula822
---------822----
90Lohikainen Milla818
--818-----------
91Hirvonen Jussi-Petri784
-0-----784------
92Leppälä Martti777
----------777---
93Kakko Iiro766
----------766---
94Lintumäki Aki763
----------763---
95Elonen Markku758
---------758----
96Hasu Emmi749
--749-----------
97Malinen Marko745
-745------------
98Pikkarainen Jarmo729
-729------------
99Pitkänen Reijo695
---------695----
100Makkonen Olli689
-------------689
100Karjalainen Joonas689
-------------689
102Lindberg Lauri681
----------681---
103 671
---------671----
104Långström Veikko619
----------619---
105Kurkinen Unto612
----------612---
106Meriläinen Esa599
----------599---
107Einonen Päivi561
-561------------
108Kommio Niko560
----------560---
109Uusitalo Suvi-Päivikki532
-------532------
110Hirvonen Lassi528
-------528------
111Lehtonen Kirsi518
----------518---
112Laiho Hannu511
-----------511--
113Olkinuora Risto461
----------461---
114Saarinen Sauli422
--422-----------
115Lahtinen Jari404
-------------404
116Vähä-Pietilä Asko400
-----------400--
116Rantanen Jyrki400
---400----------
116Kaven Ari400
-------------400
116Ristolainen Janne400
--400-----------
116Jokinen Esko400
-------400------
116Nieminen Minna400
-------------400
116Kopra Jiri400
----------400---
116Seppänen Topi400
---------400----
116Toivonen Jukka400
----------400---
116Sarkki Sirkka400
--------400-----
116Andelin Tarja400
--------400-----
116Kiiskinen Hannu400
--400-----------
116Pohjoisaho Seppo400
----------400---
116Kauppinen Matti400
-400------------
116Ikonen Matti400
----------400---
116Niemi Pentti400
----------400---
116Sillanpää Pekka400
----------400---

C-rata

SijaNimiPisteet
1Nykänen Tomi10862
-96299810009841000(828)93410001000984(596)10001000
2Virtanen Aaro9786
(0)10001000786-9551000930600772998-751994
3Nuuttila Sami7427
--999761--92389590994510000-995
4Arvela Oskari6831
0997-692823-717720903688624--667
5Lohikainen Eveliina4687
------6411000820732--585909
6Lindroth Tuija4400
--400400400400400400400400-400400400
7Nuuttila Marja-Leena4000
--400400--400400400400400400400400
8Sundqvist Sari3190
----1000647-667-----876
9Suokas Kyösti3118
1000400400-400--4000518----
10Halme Sanna2400
------400-400400-400400400
11Ollila Arto1802
---------400400-400602
12Syväterä Pekka1699
-----400---400--400499
13Hyvärinen Ella1698
--------769929----
14Mörsky Aarne1497
------------999498
15Nenonen Eriikka1328
-------671-----657
16Kurki Sanna1280
---400-480-0400-----
17Sani Mikko1000
-----------1000--
18Lehtinen Meiju997
----------997---
19Pyttynen Joakim994
----------994---
20Näsi Antero987
-----------987--
21Suomela Juha953
-----------953--
22Nyberg Henry918
-----------918--
23Sorsa Juha-Antti893
-------------893
24Kivelä Pentti815
-----------815--
25Salmi Jorma800
------400400------
25Ahvonen Elina800
---------400--400-
25Syväterä Hillevi800
-----0---400--4000
28Olkinuora Risto799
-------------799
29Pitkänen Reijo777
-----------777--
30Vestola Arja776
-----------776--
31Ranta Urpo718
-----------718--
32Palo Johanna717
-717------------
33Turunen Kauko702
---------702----
33Kemppainen Matti702
-------------702
35Vepsäläinen Ville676
-------------676
36Rouvila Sami664
--664-----------
37Virtanen Ilari613
----------613---
38Uusitalo Suvi-Päivikki612
-----------612--
39Virtanen Juha611
----------611---
40Kiljunen Eemeli600
-----------600--
41Kiiskinen Jari572
--572-----------
42Vertanen Tapani571
-----------571--
43Seppänen Topi557
----------557---
44Hirvonen Joni553
-----------553--
45Hakkarainen Maria-Leena518
------518-------
45Uusi-Simola Laura518
-----518--------
47Ranta Esko485
---------485----
48Ikola Atte441
-----441--------
49Taipale Antti-Olli400
------------400-
49Repo Pekka400
------------400-
49Isoranta Jonne400
------------400-
49Pelkonen Roosa400
-----------400--
49Kurki Lasse400
---400----------
49Martikainen Jaana400
-400------------
49Ala-Heikkilä Elias400
------400-------
49Malinen Marko400
-------------400
49Gröhn Riku400
------------400-
49Ruponen Terhi400
-----------400--
49Simola Saila400
-400------------
49Keskitalo Laura400
----------400---
49Elovaara Kari400
----------400---
49Kirvesmies Vuokko400
------400-------
49Irri Tapio400
----400---------
49Toropainen Jenna400
-----------400--
49Anttila Maria400
-----------400--
49Nurminen Veikko400
-----------400--
49Jaskari Paula400
-400------------

D-rata

SijaNimiPisteet
1Virtanen Ilari11000
1000(560)10001000100010001000100010001000-(400)10001000
2Virtanen Juha8536
99956499899599499499610000996----
3Taipale Anniina2047
---------929-400-718
4Halme Kaisa1958
---400---400-758---400
5Gröhn Riku1956
-1000956-----------
6Halme Sanna1200
---400400--400------
7Pikkarainen Pyry1124
-400-----------724
8Laine Heli1039
-------639---400--
8Laine Jyrki1039
-------639---400--
10Arvela Oskari1000
-----------1000--
11Sundqvist Ida728
-728------------
12Einonen Päivi719
-------------719
13Ikola Aapo696
-----696--------
14Karjalainen Mikaela639
-----------639--
15Liikonen Sari589
------------589-
16Jokinen Esko536
-----------536--
17Nenonen Eriikka497
-----------497--
18Virtanen Aaro444
-----------444--
19Lohikainen Eveliina436
-----------436--
20Luukko Jukka429
-----------429--
21Virta Eila400
------------400-
21Maasilta Aapo400
-------0---400--
21Halme Hanna-Mari400
-------------400
21Ranta Esko400
-----------400--
21Suokas Kyösti400
-----------400--
21Salmi Jorma400
-----------400--
21Gröhn Ronja400
------------400-

© Yökuppi - >>