Yökuppi

Etusivu    Osakilpailut    Pistetilanne    Yöhärvelit    LIVE/Replay    Yögalleria    Ohjeet/kausikortit    Yökuppi ry
Tulossa:
27.3.2019
Heinola, kirkonkylä
17.4.2019
Hollola, Sairakkala
24.4.2019
Mäntsälä, Tornikallio
28.8.2019
Nastola, Immilä
4.9.2019
Lammi

Viimeisin tapahtuma:
20.3.2019
Orimattila, Jokela

Yökuppi 2013

A-rata

SijaNimiPisteet
1Leirimaa Tatu8931
10008708351000(554)1000877(400)799796954800
2Hytönen Harri8413
978733828991756765831720(472)(400)869942
3Karetjoki Jouni7885
810776811911474-817801-718803964
4Hirvonen Juha7858
896756635875(442)885746674999619-773
5Hirvonen Kimmo6658
692493611693425835--459703783964
6Ahvenainen Timo6466
0973-905994--100076782701000
7Lehtinen Niko6134
-951----760711907876960969
8Nousiainen Antti6071
922491645579455(400)640(0)448594533764
9Kukkonen Saara5582
892534643--793-750-517631822
10Leppänen Kristian5494
-771816866-939-841--861400
11Anttolainen Aleksi4776
-1000826---950-10001000--
12Tuomala Tuukka3880
6600999787-722----712-
13Niskanen Tuomo3532
664-570-999---431-8680
14Orava Esa3220
915586824---895-----
15Koivuniemi Kirsi3003
618400430--400-555---600
16Silvonen Tomi2972
-958---610903-0501--
17Lautamäki Asko2962
798861702-----601---
18Reitti Mikko2908
9449641000---------
19Kuusinen Petri2846
--821--863--713449--
20Tuokko Jyrki2753
---655400401497400-400--
21Lehtonen Pasi2669
881834--------954-
22Hämäläinen Jani2527
--685---885-0-957-
23Suomela Lauri2525
---890779856------
24Jokinen Heikki2464
---770----0695-999
25Hiiri Ari2333
770868--------695-
26Kiuru Jani2066
-----6625670-437-400
27Vennelä Simo-Pekka2027
---690-751-5860---
28Karjalainen Joonas2010
---742-40041445400--
29Saari Toni1956
------987969----
30Rantanen Marko1934
----476-774----684
31Penttinen Topi1882
--997-------885-
32Kärkkäinen Mikko1797
-----465---455877-
33Niskanen Teemu1769
---------805-964
34Meriläinen Ari1672
--802-------870-
35Malmberg Arto1653
-------4750547-631
36Gröhn Timo1614
811-803---------
37Ryyppö Jarkko1612
----758-854-----
38Järvinen Seppo1516
--517999--------
39Vantaala Jouni1410
---------536874-
40Gynther Kimmo1356
---796--560-----
41Maasilta Tommi1286
-----571715-0-0-
42Laiho Juha-Matti1114
-----639475-----
43Sundqvist Jari1097
-----635462-----
44Turunen Pasi1063
--663---400-0---
45Luoma Ville1000
----------1000-
45Mutka Manu1000
-----------1000
45Parkkinen Jarno1000
------1000-----
45Wickholm Jörgen1000
----1000-------
49Mäkinen Tapani981
981-----------
50Solonen Joni964
-----------964
51Huostila Markku949
-----400549-----
52Sild Timo946
----946-------
53Pakari Jussi932
----------932-
54Nieminen Markku926
--475--451------
55Liuha Jarkko921
---------921--
56Linnainmaa Tero882
------882-----
57Hasu Simo874
-----874------
58Heikkilä Tuomas867
-----------867
59Mäkelä Atte835
--835---------
59Kurhinen Tomi835
-------835----
61Valkonen Lauri816
-816----------
62Liikkanen Reima800
0400400---------
63Kaunetsalo Jukka791
--------0--791
64Haarlaa Tapio774
----774-------
65Lepistö Mikko758
----------758-
66Huostila Anssi748
-----0748-----
67Leinonen Kari747
-----------747
68Hasu Topi745
-----745------
69Peltola Ilkka720
------720-----
70Rantala Valtteri719
-------719----
71Huotari Lauri708
--708---------
72Lindroth Joona690
------690-----
73Rauhamaa Kari684
-----------684
74Mäkinen Seppo667
--667-0-------
75Dobbs Neil647
----647-------
76Keinänen Jarkko640
-----------640
77Koivuniemi Kimmo623
--623---------
78Tervala Mika611
------611-----
79Salminen Harri602
----------602-
80Tupitsa Juuso597
----597-------
81Kauppinen Jussi595
------595-----
82Baumholczer Mate588
--588---------
83Hirvonen Olli-Petteri585
--585---------
84Heinilä Hannu583
------583-----
85Andelin Sanna582
-----------582
85Nieminen Tomi582
------582-----
87Pyykkönen Tero560
-----------560
88Tammi Matti536
----------536-
89Kiljunen Juha490
------490-----
90Rantala Tommy477
----477-------
91Larjanne Juho462
------462-----
92Mäenpää Aleksi442
----442-------
93Kauppi Minna438
---------438--
94Vepsäläinen Ville427
-----------427
95Kokkonen Markku400
----------400-
95Laukka John400
400-----------
95Manninen Pekka400
----------400-
95Nurmela Sari400
----400-------
95Lohikainen Timo400
------400-----
95Tikkanen Tapio400
----400-------
95Leino Johanna400
400-----------
95Lindberg Lauri400
----------400-
95Lindberg Heikki400
----------400-
95Aspelund Jari400
----------400-

B-rata

SijaNimiPisteet
1Laine Markku8319
946999813891843785657736(541)910739(560)
2Lehtinen Jukka8089
929927897-655815583999(0)842772670
3Lohikainen Milla7638
980840820(0)788875545659744717-670
4Lohikainen Timo7277
949826816400781(0)-631658705841670
5Lindroth Joona7167
1000100010001000457719-991--1000-
6Lassila Marko7024
799752538620785400632975(0)(0)809714
7Järvinen Tuomas6884
950831766927-6980-758543768643
8Kohonen Jani6626
(0)-849880544778400767540740590538
9Haapaniemi Marko6524
---858400755674967802709804555
10Salo Tommi6506
740609659552531614613(462)761693734(418)
11Manerus Eero6448
642--681530691657842464760741440
12Pökälä Mona5527
-755-822-738400613400554707538
13Elovaara Juho5146
987834937-400798--437--753
14Palo Juha4901
0620400588-608477-515-814879
15Kiljunen Eemeli4748
994459943--924----714714
16Väkeväinen Mika4507
-----6014411000501762400802
17Tahvanainen Anu4412
-821---0400889762-815725
18Lindroth Mia4407
-621601-532736-790--589538
19Elovaara Kari4370
781457676-645796--400--615
20Rekola Pekka3549
-00400-666547793-627-516
21Kiljunen Juha3493
-931775--939----848-
22Vidqvist Jouni3398
-998--1000-400----1000
23Sani Mikko3389
00-856-521-696-668-648
24Lepola Antti2885
-----605-773814693--
25Kauppinen Jussi2811
--714833-0-824---440
26Hyvärinen Emilia2740
----400630400-656--654
27Einiö Eetu2577
948828801---------
28Rantala Ilkka2157
--------838611708-
29Mäenpää Jarmo2137
-------400400537400400
30Palttala Pekka2053
----709---0-806538
31Heikkilä Venla2018
----783658-----577
32Koponen Simo2001
-----400400400400--401
33Elonen Markku1986
0----718--735--533
34Rantala Joonas1930
--------93010000-
35Kiuru Seppo1922
703-------494725--
36Ristolainen Janne1815
-----0-400400400-615
36Arvela Kirsi1815
-----723515----577
38Uusi-Simola Arto1781
-891--890-------
39Pitkänen Reijo1771
-0---583-788400---
40Laurell Olli1758
--------548595-615
41Kivelä Pentti1746
-----698--603--445
42Tervala Miska1744
967----777------
43Tuomala Tuukka1739
--999-740-------
44Saarinen Heikki1732
-933----799-----
45Suomela Juha1707
--400499400408------
46Kuusela Iiro1703
-----841-862----
47Niskanen Tuomo1689
----999690------
48Nurminen Hannu1543
-----616527-400---
49Aspelund Jari1511
496-400--------615
50Orava Päivi1418
-----709-709----
51Kinkki Seppo1323
--------748-575-
52Nikkari Paavo1297
--0--623-674----
53Sundqvist Jari1296
--------400--896
54Iivonen Risto1293
------400--493-400
55Lintumäki Aki1244
444400400---------
56Nieminen Minna1200
400-400--400------
57Kauhanen Jalmari1014
-----400--614---
58Pohjantähti Tomi1009
0400609---------
59Heikkilä Tuomas1000
-----1000------
59Kauppi Minna1000
------1000-----
59Ihalainen Pertti1000
--------10000--
62Pohjola Jukka995
----------995-
63Joensuu Marttiina986
------986-----
64Toivonen Jukka983
-----583400-----
65Romula Tuomo930
---530400-------
66Andelin Sanna924
------924-----
67Jokinen Esko920
---519-------401
68Vennelä Simo-Pekka913
------913-----
69Jalonen Eero899
----0899------
70Salo Markku897
---497-400------
71Leino Johanna867
--------400--467
72Larjanne Juho839
-----839------
73Nykänen Timo829
0----829------
74Vainionpää Hanna817
----------817-
75Nieminen Markku814
814-----------
76Kivikko Antti813
----------813-
77Meriläinen Esa807
----------807-
78Sundqvist Sari800
-----400400-----
79Toivonen Juuso788
-----0788-----
80Ikonen Juha777
---777--------
81Kiiskinen Hannu761
-----761------
82Pousi Raiko729
-----729------
83Kyyrönen Heikki725
---725--------
84Hyvärinen Ella705
-------705----
85Vainionpää Anu704
----------704-
86Laiho Hannu694
------694-----
87Nieminen Verneri654
-----------654
88Nyberg Henry646
----646-------
89Kukkonen Saara644
------644-----
90Hirvonen Lassi633
--633---------
91Hirvonen Jussi-Petri619
--619---------
92Nieminen Tomi610
-----------610
93Kainulainen Ari594
---594--------
94Keskinen Markku592
----------592-
95Mattila Valtteri590
--------590---
96Vähä-Pietilä Asko587
------587-----
97Mahlamäki Erkki578
578-----------
98Maasilta Tommi560
-----------560
99Rantalainen Anna-Lea533
---------0-533
100Lahtinen Jari528
------528-----
101Leinonen Kari516
---------516--
102Erämaja Henna488
----------488-
103Yli-Eerola Neija487
----------487-
104Railimo Matti485
---485--------
105Mäkinen Jouko476
-476----------
106Huusari Hannu434
434-----------
107Mörsky Aarne423
-----------423
108Vuorio Olavi406
---------406--
109Mäkinen Matti401
-----------401
110Sillanpää Pekka400
----------400-
110Kauppinen Matti400
--400---------
110Långström Veikko400
----------400-
110Niemi Pentti400
----------400-
110Routsi Jyrki400
------400-----
110Liitiäinen Reijo400
----400-------
110Dahlman Maarit400
0400----------
110Mattila Tuomas400
-----400------
110Jalonen Olli400
----400-------
110Sarkki Sirkka400
----400-------
110Vuorinen Pirjo400
-----------400
110Elovaara Tuula400
-----------400
110Latvasto Erkki400
----400-------
110Lahtinen Terttu400
---400--------
110Napola Jussi400
---400--------
110Montonen Outi400
---400--------
110Liukkonen Jari400
------400-----
110Pelkonen Heikki (PäijRa)400
------400-----
110Uusitalo Suvi-Päivikki400
---400--------
110Hakkarainen Maria-Leena400
---400--------
110Sikiö Matti400
-----400--0---
110Karppinen Pentti (LTH)400
---400--------
110Lainio Teppo400
--400---------

C-rata

SijaNimiPisteet
1Nykänen Tomi8109
889997-931-926-7478469241000849
2Nuuttila Sami5155
01000547996---400815548-849
3Nuuttila Marja-Leena4491
400779400(400)-404508400400400400400
4Lindroth Tuija4406
400778(400)400(0)415400400400413400400
5Lohikainen Eveliina4136
---1000999---758-979400
6Suokas Kyösti3929
40001000400-400-655--400674
7Ranta Urpo1858
------8581000----
8Kauppinen Matti1693
---698---595---400
9Sundqvist Sari1447
--------691--756
10Kaven Ari1256
--------663--593
11Tervala Miska1000
------1000-----
11Dahlman Maarit1000
-----------1000
11Koponen Simo1000
---------1000--
11Pajunen Arja1000
-----1000------
11Gröhn Riku1000
1000-----------
11Saalo Hanna-Mari1000
----1000-------
11Leinonen Kari1000
--------1000---
18Palo Juha993
---------993--
19Kiljunen Eemeli987
------987-----
20Rekola Pekka934
--------934---
21Pitkänen Reijo927
------927-----
22Myllykangas Juuso920
-------920----
23Savolainen Jukka907
-----------907
24Paronen Hanna905
---505--400-----
25Näsi Antero859
------859-----
26Rauhamaa Topias849
-----------849
27Mäkinen Riikka825
825-----------
27Hasu Iina825
-----825------
29Einonen Päivi819
------400----419
30Suomela Juha790
------790-----
31Lehtinen Meiju758
----------758-
32Lehtinen Jari750
----------750-
33Sundqvist Ida721
--------721---
34Lehtinen Teuvo712
------712-----
35Kyyrönen Heikki667
------667-----
36Lahdenvirta Pasi628
-----------628
37Ranta Esko627
-----627------
38Kivelä Pentti587
------587-----
39Jaskari Paula465
0----------465
40Elonen Jaana400
-----------400
40Hahl Jari400
-----------400
40Lautamäki Matias400
--------400---
40Malinen Marko400
-----------400
40Koivunen Pertti400
----------400-
40Pettinen Emilia400
----------400-
40Uusitalo Suvi-Päivikki400
------400-----
40Andelin Tarja400
------400-----
40Ristolainen Janne400
------400-----
40Sikiö Matti400
------400-----
40Lahtinen Terttu400
------400-----
40Railimo Matti400
------400-----
40Hosiaisluoma Suvi400
--400---------
40Hosiaisluoma Ossi400
--400---------
40Jansson Julia400
-------400----
40Syväterä Pekka400
------400-----
40Suortti Aleksi400
-------400----
40Auvinen Ida400
-------400----
40Auvinen Nina400
-------400----
40Sipponen Olli-Pekka400
-------400----
40Syväterä Hillevi400
------400-----
40Suortti Konsta400
-------400----
40Rantalainen Anna-Lea400
------400-----

D-rata

SijaNimiPisteet
1Arvela Oskari4622
-----762517-94310001000400
2Virtanen Aaro4382
-----931-915644892-1000
3Gröhn Riku4077
-----1000727-1000810-540
4Virtanen Ilari2920
-------996578886-460
5Gröhn Ronja1600
------400-400400-400
6Gröhn Mervi1200
------400-4000-400
7Kemppainen Matti1037
-----637-----400
8Maasilta Aapo1016
------616----400
9Nuuttila Sami1000
------1000-----
9Virtanen Juha1000
-------1000----
9Översti Irene1000
---1000--------
12Nykänen Tomi855
------855-----
13Toivonen Jussi747
-----747------
14Kemppainen Lasse635
-----635------
15Remahl Virpi560
-----------560
15Remahl Ville560
-----------560
17Salo Markku530
------530-----
18Lohikainen Eveliina526
------526-----
19Kemppainen Veera520
-----------520
20Karjalainen Mikaela443
------443-----
21Riutto Petri400
-----------400
21Taipale Anniina400
-----------400
21Pikkarainen Pyry400
-----------400
21Leppänen Annukka400
-----------400
21Viljakka Kaarin400
-----------400
21Viljakka Kalle400
-----------400
21Leppänen Anni400
-----------400
21Pikkarainen Jarmo400
-----------400
21Riutto Emilia400
-----------400
21Taipale Tarja400
-----------400
21Riutto Eerika400
-----------400
21Kopra Ella400
-----------400
21Seppänen Iida400
-----------400
21Einonen Esa400
------400-----
21Suokas Kyösti400
------400-----
21Luukko Jukka400
------400-----
21Hakkarainen Maria-Leena400
------400-----
21Montonen Outi400
------400-----
21Ranta Esko400
------400-----
21Halme Sanna400
-----------400
21Ketonen Juuso400
------400-----
21Halme Kaisa400
-----------400
21Salmi Jorma400
------400-----
21Sundqvist Ida400
-----------400

© Yökuppi - >>