Yökuppi

Etusivu    Osakilpailut    Pistetilanne    Yöhärvelit    LIVE/Replay    Yögalleria    Ohjeet/kausikortit    Yökuppi ry
Tulossa:
28.8.2019
Nastola, Immilä
4.9.2019
Lammi, Kapakanmäki
11.9.2019
Orimattila, Salusjärvi
18.9.2019
Hollola, Hälvälä
25.9.2019
Nastola, Pajulahti

Viimeisin tapahtuma:
24.4.2019
Mäntsälä, Tornikallio

Yökuppi 2011

A-rata

SijaNimiPisteet
1Reitti Mikko9324
-78197794810001000998770988862-1000-
2Leppänen Kristian7611
-740671764824772753-984553687863-
3Ahvenainen Timo7045
-86488710007628361000-999697-0-
4Hirvonen Juha7043
-676673445(0)748999400987658678779-
5Leirimaa Tatu6538
-7860462664593754(0)831785825-838
6Vantaala Jouni6105
---737-722632696465657768806622
7Hämäläinen Jani5860
--878939-731-560-798999955-
8Lehtinen Niko5686
-0(0)635-6100636998617599835756
9Hirvonen Kimmo5448
--746824---400819705400784770
10Käyhkö Jarno5441
-866-----9999780772999827
11Anttolainen Aleksi4399
--850----7731000-944-832
12Huostila Anssi3951
---644-49906900577-817724
13Tuomala Tuukka3860
-646999------599820796-
14Poutiainen Harri3762
----10009430928891----
15Kuusinen Petri3634
-783787--807--503---754
16Tervala Mika3320
---939-----699-927755
17Heinonen Mikko3000
-10001000----1000-----
18Laiho Juha-Matti2939
-4640572639419-445-400---
19Huostila Markku2522
---663-4660400993----
20Silvonen Tomi2365
-----832749-07840--
21Vidqvist Jouni2277
-744729--------804-
22Koskinen Juho2256
-400660-------707-489
23Laine Lauri2251
-00--684--821--7460
24Hytönen Harri2144
----600---820-724--
25Penttinen Topi1998
-998----------1000
26Saari Toni1994
---------9941000--
27Hämäläinen Sami1991
---------10000-991
28Laukkarinen Jesse1943
---------9431000--
29Suominen Miika1935
---------9430-992
30Karetjoki Jouni1929
--7460--494---689--
31Huhtinen Mikko1805
---------8230-982
32Simosas Otto1706
---------709997--
33Tuokko Jyrki1545
-651-----400---494-
34Meriläinen Ari1482
-783----------699
35Rantanen Marko1432
--0----400---488544
36Huusari Pauli1419
------569----850-
37Jaskari Jussi1399
-----999-400-----
37Vironen Esa1399
-------0999400000
39Lautamäki Asko1384
-746638----------
40Rantala Valtteri1354
---------7585960-
41Nieminen Markku1197
------797--400---
42Hiiri Ari1120
---697-423-------
43Peltola Ilkka1051
----0475-576-----
44Jokinen Heikki999
----0-------999
44Saleva Eero999
--------999----
46Mäkinen Tapani983
--983----------
47Vainio Antti965
------------965
48Laasanen Teemu927
--0-927---0----
49Matilainen Jarno925
-525-----400-----
50Maasilta Tommi904
-0-----400---504-
51Lindberg Aapo863
-863-----------
52Väisänen Marko842
--842----------
52Mukhidinov Vyacheslav842
-842-----------
54Lehmusvuori Tomi834
--834----------
55Mähönen Timo802
-802-----------
56Nieminen Tomi800
-------400---400-
57Virtanen Markku792
---792-0-------
58Koskinen Arttu782
----782--------
59Orava Esa780
-780-----------
60Hasu Topi778
-778-----------
61Gröhn Timo772
--0772---------
62Yli-Kauppila Mikko764
----------764--
63Hirvonen Olli-Petteri742
-7420----------
64Virkki Vili739
-739-----------
65Pulli Veli-Matti737
-737-----------
66Heikkilä Mikko735
---735---------
67Ryyppö Jarkko701
-------701-----
68Örn Antti663
-6630----------
69Huotari Lauri633
------633------
70Dahlman Maarit609
-----------609-
71Laiho Hannu529
-529-----------
72Lohikainen Timo525
-----------525-
73Liitiäinen Pasi476
-476-----------
74Matilainen Juha475
-475-----------
75Sjöblom Sami400
-------400-----
75Järnstedt Janne400
-------400-----
75Karppinen Tom400
-------400-----
75Liukkonen Jari400
-------400-----
75Valonen Kari400
------400------
75Heikkilä Ossi400
-----400-------
75Mäkinen Jari400
-----------400-
75Kouvonen Seppo400
-----------400-
75Sikiö Matti400
-----------400-
75Hasu Simo400
-400-----------

B-rata

SijaNimiPisteet
1Mäkinen Elisa9108
-929935-999-89399997410006171000762
2Saarinen Heikki8807
-880994(735)815848990803745936987809(492)
3Lehtinen Jukka8594
-9199901000-733(493)963686886947887583
4Järvinen Tuomas8386
-831918609-968987610850781994838(441)
5Laine Markku8193
-999661794709948(446)773(543)909908887605
6Lindroth Joona7678
-8861000--667838889886925-888699
7Lassila Marko6508
-645756777672569(437)797621476710485(400)
8Manerus Eero5857
---745681-830726400538869668400
9Palo Juha5480
-828490561-575832400(0)4550715624
10Kukkonen Saara5397
--984----1000-922951968572
11Elovaara Kari5282
-716901628-635833592577---400
12Nurminen Hannu5232
-482400654-822836562400--676400
13Salo Tommi5219
-638716453400646400(400)(400)625400541400
14Koivuniemi Kirsi5191
-912920-686-447--857-801568
15Iivonen Risto4928
---5865844000470458716627687400
16Kohonen Janne4743
---755714429448-849591-400557
17Ekholm Henri4618
------573737547781928559493
18Tuokko Jyrki4546
---843687898666-929-523-0
19Rantala Valtteri4383
-1000-719--7988661000----
20Sorsa Juha-Antti4347
--917992836---658-944--
21Rekola Pekka4344
---5736916710-400726883400-
22Hurmalainen Sami4311
----8157650-8868451000--
23Lohikainen Timo4176
-628400492754400400--532--570
24Lepola Antti4157
-527--736-572--706920696-
25Elovaara Juho3917
--0757-636834556734---400
26Pitkänen Reijo3912
---942---886-999-685400
27Mäkinen Jouko3822
-915920----750--400837-
28Vidqvist Jouni3724
----1000944-851-929--0
29Toivonen Juuso3641
---680-8820898---725456
30Orava Päivi3524
-903--643772-678528----
31Elonen Olli-Pekka3393
---828643440572---910--
32Ylitalo Kira3388
-----767568642540871---
33Hämäläinen Jorma3356
--906----796871--783-
34Ihalainen Pertti3325
---982549400----570824-
35Maaranen Timo3298
---400657-443-472526-400400
36Kiiskinen Hannu3267
-----738609--400648472400
37Tervala Miska3132
---867-----820-744701
38Elonen Markku2965
---807621----635902--
39Palttala Pekka2947
--616--84100877---613
40Kirvesmies Tytti2946
-----10001000946-----
41Inkinen Paavo2868
0918779400---771-----
42Mörsky Aarne2852
--4000-4000400400400400452-
43Kohonen Jani2805
----7274000-400400400-478
44Heikkilä Tuomas2732
-----848--8841000---
45Tuomala Tuukka2640
--999-----881---760
46Liikkanen Reima2578
----400434564683-497---
47Liikkanen Olli2468
----508597615--748--0
48Pökälä Mona2435
---591-400-704---740-
49Lehto Esa2424
-------772783869---
50Suokas Kyösti2422
---400422---400-400400400
51Maasilta Tommi2356
----858-0-862636---
52Niskanen Tuomo2353
----624890839------
53Karppinen Tom2351
-----703588--525535--
54Kauppinen Jussi2225
----511-451400863----
55Lintumäki Aki2009
-400409400------400-400
56Nikkari Paavo2000
--------400400400400400
56Koskela Markku2000
-----400400400400-400--
58Kiljunen Juha1934
---708-781445-----0
59Valonen Kari1911
-----911-1000-----
60Hirvonen Jussi-Petri1899
-718---------699482
61Toivonen Jukka1868
---668-4000----400400
62Andelin Sanna1781
------937844-----
63Sulopuisto Jarmo1771
--755-------400616-
64Niskanen Mikko1763
---------832931--
65Pelkonen Heikki (PäijRa)1760
---913847--------
66Nummela Arttu1747
-----7730974-----
67Lohikainen Milla1741
-826915----------
68Hämäläinen Markku1717
-------959---758-
69Lehtinen Teuvo1700
-------526---631543
70Niskanen Teemu1628
-------926----702
71Suomela Juha1618
-649-569---400-----
72Einiö Eetu1563
-----770-793---0-
73Liukkala Pekka1562
---466-696------400
74Kivelä Pentti1561
-------575---586400
75Dahlman Maarit1531
-------810-721---
76Ruhanen Hanna1510
--------585-925--
77Solonen Joni1465
------773-----692
78Kiuru Seppo1383
---717---666-----
79Ryyppö Minna1371
--------830-541--
80Hyvärinen Emilia1351
------573778-----
81Tahvanainen Anu1347
---733614--------
82Huostila Tommi1346
---906---440----0
83Järvinen Timo1324
---------400-524400
84Näsi Antero1320
------600720-----
85Ikonen Juha1308
---573735-0------
86Kauppinen Matti1267
------400467400----
87Rauhamäki Anne1216
----------634582-
88Lepola Siiri1211
------448763-----
89Nieminen Tomi1200
---------796--404
90Heikkilä Venla1129
-----585--0544---
91Niemi Vili1000
------------1000
92Paavilainen Mari964
----400564-------
93Mänkärlä Janne882
------------882
94Ruponen Terhi859
---400459--------
95Kirvesmies Lotta837
------837------
96Kaipiainen Päivi800
---400400--------
96Onnela Veli-Matti800
------400--400---
96Valonen Paavo800
--------400400---
96Jokinen Esko800
--------40000400-
100Örn Antti762
------------762
101Keskinen Sampo757
------------757
102Mäkinen Perttu736
-----736-0-----
103Turva Jukka723
---723---------
104Huotari Lauri721
-----721-------
105Lauronen Sirkka-Liisa674
------674------
106Laiho Hannu665
-----------665-
107Kaunetsalo Jukka651
---------651---
108Nieminen Markku650
------------650
109Särkänmäki Heikki644
----------644--
110Sundqvist Jari626
------------626
111Kotilainen Matti558
-------558-----
112Rauhamaa Topias546
-----------546-
113Rauhamaa Kari540
-----------540-
114Nyberg Henry527
-------527-----
115Montonen Outi487
-------487-----
116Niemi Jarmo484
---------484---
117Ranta Urpo453
-------453-----
118Huusari Hannu438
-----------438-
119Vähä-Pietilä Asko419
-------419-----
120Repo Pekka409
---------409---
121Pousi Raiko400
-----------400-
121Liukkonen Jari400
-----------400-
121Lahtinen Sanna400
-----------400-
121Karvonen Ari400
----400--------
121Pyykkönen Tero400
------------400
121Vepsäläinen Ville400
------------400
121Arvela Kirsi400
------------400
121Mäkinen Matti400
------------400
121Meriläinen Esa400
------------400
121Kuusipohja Leena400
--400----------
121Ahvonen Elina400
-----------400-
121Ruokolainen Jenna400
----400--------
121Tertsunen Ari400
---400---------
121Kinkki Seppo400
------------400
121Idman Raimo400
-----------400-
121Kulmalahti Roope400
----400--------
121Salo Markku400
------400------
121Hakkarainen Maria-Leena400
------400------
121Uusitalo Suvi-Päivikki400
--------400----
121Vainionpää Mika400
--------400----
121Saleva Mikko400
--------400----
121Sikiö Matti400
-------0----400
121Jaskari Paula400
-------400-----
121Rajala Esa400
---------400---
121Immonen Elina400
-------400-----
121Ruponen Petra400
----400--------

C-rata

SijaNimiPisteet
1Kiljunen Eemeli8088
---991-40080189610001000100010001000
2Nuuttila Sami6115
-10001000508991(400)400400400616400-400
3Lindroth Tuija5976
-996993502948400400400400537400--
4Jaskari Paula5253
---1000-400400-777827599611639
5Savolainen Jukka2584
------1000715----869
6Elonen Jaana2212
-----488570-754-400--
7Kyrö Anni2040
-------564---976500
8Nuuttila Marja-Leena1988
-995993----------
9Elovaara Tuula1924
--850---580-----494
10Vuorinen Pirjo1828
--851--400577----0-
11Ylitalo Heikki1628
-----453-400775----
12Vuorinen Heidi1600
-------400-400-400400
12Hosiaisluoma Ossi1600
-------400-400-400400
14Lohikainen Eveliina1385
--------585--400400
15Nieminen Minna1303
---------903--400
16Ekholm Henri1000
-----1000-------
16Tervala Miska1000
-------1000-----
16Rantalainen Tuija1000
----1000--------
19Orava Aatu977
--------400--577-
20Nieminen Verneri971
-----------971-
21Hämäläinen Eveliina966
-------400-566---
21Järvi Jarno966
-------400-566---
23Vanhalakka Katja954
------------954
24Nyberg Pertti952
---------952---
25Pousi Raiko943
------943------
26Rantalainen Arja935
----935--------
27Liikkanen Olli910
-------910-----
28Palo Johanna900
-----------500400
29Kaartokallio Antti879
---879---------
30Kauppinen Jussi837
-----837-------
31Ranta Esko800
-------400----400
31Orava Veikka800
--------400--400-
33Turva Jukka780
-----780-------
34Sundqvist Sari757
------------757
35Laatunen Teuvo748
------------748
36Turunen Kauko744
------------744
37Kouvonen Seppo697
------------697
38Salo Markku653
-------653-----
39Liikkanen Reima614
------------614
40Lohikainen Timo584
--------584----
41Andelin Tarja569
-------569-----
42Kantola Claudia563
-----------563-
43Mäkinen Jari490
------------490
44Kauppinen Matti472
-----472-------
45Luukko Jukka455
-------455-----
46Uusi-Simola Arto437
-----437-------
47Repo Pekka400
------------400
47Arvela Oskari400
------------400
47Koivuniemi Lassi400
------------400
47Hyvärinen Roosa400
------------400
47Hyvärinen Ella400
------------400
47Korhonen Hannu400
------------400
47Valonen Paavo400
------------400
47Linkovuori Eeva400
-----------400-
47Irri Tapio400
------------400
47Pekkarinen Eila400
-------400-----
47Pietinen Liisa-Marjatta400
------400------
47Tahvanainen Pirkko400
-------400-----
47Malm Raija400
---400---------
47Ruokolainen Jenna400
---400---------
47Ruponen Petra400
---400---0-----
47Hirvonen Kia-Lotta400
-----------400-
47Nykänen Tomi400
-------400-----
47Karppinen Pentti (LTH)400
-------400-----
47Lario Heikki400
-------400-----
47Honkonen Antti400
-------400-----
47Ruponen Terhi400
-------400-----
47Jalava Reino400
-------400-----
47Immonen Ella400
-------400-----

© Yökuppi - >>