Yökuppi

Etusivu    Osakilpailut    Pistetilanne    Yöhärvelit    LIVE/Replay    Yögalleria    Ohjeet/kausikortit    Yökuppi ry
Tulossa:
27.3.2019
Heinola, kirkonkylä
17.4.2019
Hollola, Sairakkala
24.4.2019
Mäntsälä, Tornikallio
28.8.2019
Nastola, Immilä
4.9.2019
Lammi

Viimeisin tapahtuma:
20.3.2019
Orimattila, Jokela

Yökuppi 2010

A-rata

SijaNimiPisteet
1Reitti Mikko9636
830971(750)10009051000995(765)1000(825)1000981954
2Ahvenainen Timo8780
973943672978(600)938-710911(0)752948955
3Hirvonen Juha7818
715836578805(0)941999(0)722725(455)676821
4Örn Antti7635
827(0)786708-808(427)588685821708860844
5Leppänen Kristian7015
805795601(540)(532)718628638-711612859648
6Bäckman Johan6874
--900-1000-100010009741000--1000
7Hirvonen Kimmo6486
(0)919-874400-8448190708443700779
8Käyhkö Jarno6242
1000993499---945-918999888-0
9Hämäläinen Jani6222
880970-----769-8558981000850
10Laine Markku5380
756412712481(400)(400)400498(0)494620607400
11Mäkinen Tapani5288
907999751660-0400861-710---
12Orava Esa4647
-877632-627852400614645----
13Saarela Ville4304
564830716-----734-640-820
14Silvonen Tomi4214
-942636-0--715-583712-626
15Anttolainen Aleksi4206
-970-----8118257700-830
16Huostila Markku3893
---688400531413526400535-400-
17Lehmusvuori Tomi3836
-437524-648789-647791----
18Matikainen Juho3829
------426901816801885--
19Kauppi Ville3713
400794621---629675--594-0
20Ketolainen Juha-Ville3531
-1000875898---758-----
21Hirvonen Olli-Petteri3104
-795400400-----536573-400
22Kukkonen Saara3011
670400400----491-650-400-
23Tuomala Tuukka2940
-0---818578999-545---
24Penttinen Topi2802
-9350879--------988
25Laiho Juha-Matti2769
400458400400-7064050-----
26Rauhamaa Kari2633
--659--821-632-521---
27Lindberg Aapo2540
915942683----------
28Vidqvist Jouni2264
---400----603675586--
29Keinänen Jarkko2161
669794----------698
30Lautamäki Asko2090
-666-687------737--
31Gröhn Timo2080
---604-852-624-----
32Sorsa Perttu1945
-9451000----------
33Huusari Pauli1829
-------498-750--581
34Kuusinen Petri1815
--731---427---657-0
35Laine Lauri1763
-935828----------
36Jokinen Heikki1728
---------729--999
37Hasu Topi1622
--442---400--780---
38Meriläinen Ari1567
-----------868699
39Lantela Jaani1332
--527805--------0
40Tuokko Jyrki1327
400-415---5120-----
41Ketonen Kleo1312
-520792----------
42Ternola Teemu1204
-----5686360-----
43Hytönen Harri1196
770-426----------
44Ternola Mika1194
-----794-400-----
45Lepola Sanni1011
-516------495----
46Huikko Petteri993
-993-----------
47Koponen Ville986
-986-----------
48Väisänen Marko973
-973-----------
49Siren Mikko923
-923-----------
50Leirimaa Tatu894
---400-----494---
51Savelainen Timo889
-------889-----
52Vapa Marko887
-------887-----
53Mäkinen Lauri883
-8830----------
54Pietilä Ville871
-871-----------
55Laasanen Teemu852
----------852--
56Karetjoki Jouni838
-838-----------
57Vapa Mikko832
-------832-----
58Koskinen Arttu820
--------820----
59Virkki Vili817
-----------817-
60Simosas Otto806
--806----------
61Mamia Tero790
-------790-----
62Huusari Pekka772
---------772---
63Järvinen Seppo764
-----------764-
64Salo Mikael763
--763----------
65Järnstedt Janne754
-754-----------
66Heinaro Einari721
---------721---
67Ratilainen Rauno706
-0706----------
68Mikander Christopher691
--691----------
69Huttunen Esa688
--688----------
70Erkkilä Jukka686
-------686-----
71Mäkelä Atte668
-----------668-
72Hasu Simo666
---------666---
73Nykänen Timo653
---------653---
74Matilainen Jarno614
-614-----------
75Maasilta Tommi587
587--------0---
76Ahlqvist Lars-Johan568
--568----------
77Elo Mika554
--------554----
78Mikander Max553
--553----------
79Koskinen Juho546
-------0--546--
80Einonen Juha541
---5410--------
81Andelin Sanna530
---------530---
82Huostila Anssi527
----0----527---
83Vennelä Simo-Pekka490
--490----------
84Liitiäinen Pasi471
--471----------
85Glazunov Denis447
--447----------
86Hynninen Petri438
-----4380------
87Kirvesmies Juha417
---417---------
88Malmberg Arto416
---------416---
89Keskinen Markku400
---------400---
89Juurinen Petri400
---------400---
89Mikkola Oskari400
---------400---
89Anttila Aleksi400
---------400---
89Palttala Pekka400
---------400---
89Ihalainen Pertti400
------400------
89Nilsson Svante400
--400----------
89Simosas Ove400
--400----------
89Pirilä Janne400
-400-----------
89Valonen Kari400
-------400-----
89Aaltonen Lassi400
-------400-----

B-rata

SijaNimiPisteet
1Lehtinen Niko8852
----100010009961000100098210001000874
2Orava Päivi8040
-999931882583737-580725805940858(502)
3Dahlman Maarit7537
916937-839(0)4007605457061000-787647
4Lindroth Joona6504
--(400)562650534778563719852701401744
5Nurminen Hannu6229
6928281000697560400---642610400400
6Elovaara Kari6189
796400690788-626-534513-718724400
7Lohikainen Milla5710
443821569411493(400)635570(400)552532684(410)
8Salo Tommi5331
909812400400(400)(0)400(400)400681529400400
9Mäkinen Elisa5324
-949888--6007907785790--740
10Mäkinen Jouko5035
927943838555-04005074654000--
11Koskela Markku4882
--672-400400400400400584400826400
12Lintumäki Aki4879
411400429749-400--400400593697400
13Huostila Anssi4723
---770-928947748536---794
14Manerus Eero4663
---702809612400428-627620-465
15Palo Juha4493
---00628647-400815874483646
16Toivonen Jukka4383
---604480400670400442587-800-
17Palttala Pekka4127
--896476---400606-611738400
18Järvinen Tuomas4095
----723544648-669-595916-
19Elonen Markku4062
---6830498993539528821---
20Leirimaa Tatu3782
--594--8346900775-889-0
21Andelin Sanna3772
----894-993594513---778
21Lehtinen Jukka3772
----875546-616-751-984-
23Niskanen Teemu3569
---949-8271000793-----
24Lohikainen Timo3445
---400400400620-400-5616640
25Maasilta Tommi3358
--7958150400-695--653-0
26Liukkala Pekka3268
------637450-929-780472
27Forsblom Lars3232
---774-503400486400669---
28Iivonen Risto3211
-----400400415-505691400400
29Koivuniemi Kirsi3207
1000--783---648776----
30Mörsky Aarne3152
--459-400-0400-494999-400
31Hirvonen Olli-Petteri3104
-----811946632715----
32Kiljunen Juha3048
---838--767554-889--0
33Pitkänen Reijo3000
---877999-583541-----
34Lassila Marko2995
------681-545681-688400
35Töyrylä Hannu2988
------950472799767---
36Nyberg Henry2868
-------633-910721-604
37Kyyrönen Heikki2717
---672786-400453406----
38Tahvanainen Anu2710
---7400-765400-805---
39Rekola Pekka2537
----419-749400400569---
40Inkinen Paavo2511
999615897----------
41Pökälä Mona2429
---445668400---516-400-
42Tuokko Jyrki2357
---741637408--571----
43Hyvärinen Emilia1998
--778-444--776-----
44Kukkonen Saara1982
---1000982--------
45Ihalainen Pertti1976
---889602--485-----
46Niemi Seppo1864
----400---490529-445-
47Korhonen Pentti1799
------400400999----
48Tertsunen Ari1774
-745-629---4000----
49Ternola Riitta1773
-----510762501-----
50Suokas Kyösti1698
---400--4000-498400--
51Anttila Aleksi1692
------941---751--
52Kohonen Janne1690
---------720570-400
53Maaranen Timo1650
---4000--400400450---
54Lahti Kalevi1644
---483-400761------
55Sulopuisto Jarmo1638
--0------484572-582
56Kohonen Jani1611
---------718400-493
57Syväterä Pekka1600
-----400-0400400400--
58Kiuru Seppo1481
----897----584---
59Tuomala Tuukka1399
-------999400---0
60Nikkari Paavo1382
--400--------582400
61Suomela Juha1367
---4670-400500-----
62Karttimo Antti1339
----400---539---400
63Heikkilä Tuomas1334
-------462-872---
64Sorsa Juha-Antti1327
---0540---787----
65Rauhamäki Anne1318
-----461--451406---
66Leppänen Jani1293
------764529-----
67Rantala Valtteri1280
-----759--521----
68Palo Markus1253
---------8530400-
69Lehtinen Teuvo1252
----852-------400
70Onnela Veli-Matti1243
--843-------400--
71Elonen Arttu1237
--------614623---
72Heikkilä Matti1178
-------403-775---
73Bäckman Kaj1175
-------400775----
74Heikkilä Venla1149
-------400-749---
75Lindroth Mia1123
-723400----------
76Ikonen Juha1089
----400-689------
77Meriläinen Esa1062
-----------662400
78Rodionova Katja1000
-1000-----------
78Laasanen Teemu1000
------------1000
80Ylitalo Heikki979
-----400----579--
81Karjalainen Joonas953
--953----------
82Hasu Simo949
--0---949------
83Paronen Hanna944
-------400-544---
84Lepola Sanni938
--938----------
85Lamminpää Hilla913
--913----------
86Hirvonen Jussi-Petri884
----484---400----
87Huostila Tommi880
---------880---
88Hämäläinen Markku866
----0866-0-----
89Lahtinen Tuomo863
------------863
90Vuori Olli859
-------459400----
91Ylitalo Kira843
----------843--
92Virkki Vili823
------------823
93Pöyhönen Simo822
-822-----------
94Kotiranta Heikki819
----819--------
95Valonen Kari813
------------813
96Mäkinen Matti800
--400---------400
96Andelin Tarja800
------400-----400
96Elonen Jaana800
----0--400400----
96Pietinen Liisa-Marjatta800
----0----400-400-
96Lario Heikki800
------400400-----
101Savelainen Jouni788
-------788-----
102Lepola Antti779
------779------
103Nieminen Tomi774
----------774--
104Liukkonen Jari760
----0-760------
105Liikkanen Reima747
----------747--
106Mäkelä Atte745
------------745
107Niemi Jarmo743
---------743---
108Solonen Joni739
------------739
109Imberg Iiris718
---718---------
110Lehtinen Juuso676
676------------
111Niemi Hanna667
---------667---
112Kotilainen Matti663
------663------
113Laatunen Teuvo647
------647------
114Haapalainen Tero631
----631--------
115Pelkonen Heikki (PäijRa)620
--------620----
116Elonen Olli-Pekka616
--------616----
117Tuominen Seppo603
---------603---
118Heikkilä Mikko572
------572------
119Suokas Juha569
----569--------
120Rajala Esa559
---------559---
121Tervala Miska536
------------536
122Laiho Hannu514
------------514
123Arvela Kirsi468
------------468
124Kaunetsalo Jukka439
---------439---
125Koivunen Jukka412
------------412
126Leppälä Martti400
-----------400-
126Lehtonen Topi400
--------400----
126Järvinen Timo400
-----------400-
126Kuusipohja Leena400
----0--400-----
126Lahtinen Jari400
------------400
126Valonen Paavo400
---400---------
126Leppänen Martti400
------------400
126Turva Jukka400
-------400-----
126Kauppi Heikki400
----400--------
126Lahelma Jukka-Pekka400
----400--------
126Vennelä Simo-Pekka400
----400--------
126Kämäräinen Teuvo400
---------400---
126Juurinen Petri400
--------400----
126Joentausta Marko400
--------400----
126Lepola Siiri400
-------400-----
126Vuori Vennu400
--------400----
126Repo Pekka400
--------400----
126Järvinen Tuomo400
--------400----
126Mäkinen Jaakko400
-------400-----
126Havo Ari400
--------400----
126Lehtonen Hannu400
--------400----
126Kauppinen Matti400
------400------
126Lamminpää Antti400
------400------
126Syväterä Hillevi400
-----400-------
126Lamminpää Nuppu400
------400------

C-rata

SijaNimiPisteet
1Tervala Miska9436
96810008888921000815989952-969963--
2Toivonen Juuso8717
---92693192499910001000987-965985
3Elovaara Juho6869
---814-801697869783400841881783
4Nuuttila Marja-Leena5565
1000990400651--400--400749575400
5Lindroth Tuija4710
-993400400(400)-400400400400402428487
6Kauppinen Jussi4478
---1000909-977-5921000---
7Liikkanen Olli4056
----4007609869510959---
8Liikkanen Reima3389
-----433917836546657---
9Huostila Tommi3270
----870010004000--1000-
10Kauppinen Matti2478
---862811---805----
11Ruponen Terhi1989
-------04004007894000
12Kiljunen Eemeli1618
------966--652--0
13Montonen Outi1499
---400416683-------
14Kuronen Sofiina1200
----400----400--400
15Niskanen Tuomo1185
------400785-----
16Pullinen Ari1132
----------732-400
17Nieminen Verneri1000
-------0--1000--
17Lohikainen Timo1000
--1000----0-----
17Pelkonen Heikki (PäijRa)1000
------------1000
17Savolainen Jukka1000
-----1000-------
21Elonen Jaana985
---551-434-------
22Ternola Panu983
------983------
23Palo Johanna945
------------945
24Vuorio Olavi935
------------935
25Gröhn Riku916
---------400--516
26Nyberg Pertti817
----817--------
27Orava Veikka800
-------0--400400-
28Nuuttila Sami651
---651---------
29Elonen Arttu592
---592---------
30Orava Aatu400
-------0---400-
30Jaskari Paula400
-----400-------
30Salo Antti400
---------400---
30Repo Pekka400
-----------400-
30Järvinen Tuomo400
------400------
30Toivonen Jussi400
----------400--

© Yökuppi - >>